  0
SECTION
  2
HEADER
  9
$ACADVER
  1
AC1015
  9
$ACADMAINTVER
 70
     6
  9
$DWGCODEPAGE
  3
ANSI_1254
  9
$INSBASE
 10
0.0
 20
0.0
 30
0.0
  9
$EXTMIN
 10
0.0
 20
0.0
 30
0.0
  9
$EXTMAX
 10
279.4
 20
215.9
 30
0.0
  9
$LIMMIN
 10
0.0
 20
0.0
  9
$LIMMAX
 10
279.4
 20
215.9
  9
$ORTHOMODE
 70
     0
  9
$REGENMODE
 70
     1
  9
$FILLMODE
 70
     1
  9
$QTEXTMODE
 70
     0
  9
$MIRRTEXT
 70
     1
  9
$LTSCALE
 40
1.0
  9
$ATTMODE
 70
     1
  9
$TEXTSIZE
 40
3.5
  9
$TRACEWID
 40
1.0
  9
$TEXTSTYLE
  7
Standard
  9
$CLAYER
  8
0
  9
$CELTYPE
  6
ByLayer
  9
$CECOLOR
 62
   256
  9
$CELTSCALE
 40
1.0
  9
$DISPSILH
 70
     0
  9
$DIMSCALE
 40
1.0
  9
$DIMASZ
 40
3.5
  9
$DIMEXO
 40
1.0
  9
$DIMDLI
 40
3.75
  9
$DIMRND
 40
0.0
  9
$DIMDLE
 40
0.0
  9
$DIMEXE
 40
1.0
  9
$DIMTP
 40
0.0
  9
$DIMTM
 40
0.0
  9
$DIMTXT
 40
3.5
  9
$DIMCEN
 40
2.5
  9
$DIMTSZ
 40
0.0
  9
$DIMTOL
 70
     0
  9
$DIMLIM
 70
     0
  9
$DIMTIH
 70
     1
  9
$DIMTOH
 70
     1
  9
$DIMSE1
 70
     0
  9
$DIMSE2
 70
     0
  9
$DIMTAD
 70
     1
  9
$DIMZIN
 70
     0
  9
$DIMBLK
  1

  9
$DIMASO
 70
     1
  9
$DIMSHO
 70
     1
  9
$DIMPOST
  1

  9
$DIMAPOST
  1

  9
$DIMALT
 70
     0
  9
$DIMALTD
 70
     3
  9
$DIMALTF
 40
0.0393700787
  9
$DIMLFAC
 40
1.0
  9
$DIMTOFL
 70
     1
  9
$DIMTVP
 40
0.0
  9
$DIMTIX
 70
     0
  9
$DIMSOXD
 70
     0
  9
$DIMSAH
 70
     0
  9
$DIMBLK1
  1

  9
$DIMBLK2
  1

  9
$DIMSTYLE
  2
ISO-25
  9
$DIMCLRD
 70
     0
  9
$DIMCLRE
 70
     0
  9
$DIMCLRT
 70
     0
  9
$DIMTFAC
 40
1.0
  9
$DIMGAP
 40
1.524
  9
$DIMJUST
 70
     0
  9
$DIMSD1
 70
     0
  9
$DIMSD2
 70
     0
  9
$DIMTOLJ
 70
     0
  9
$DIMTZIN
 70
     0
  9
$DIMALTZ
 70
     0
  9
$DIMALTTZ
 70
     0
  9
$DIMUPT
 70
     0
  9
$DIMDEC
 70
     2
  9
$DIMTDEC
 70
     2
  9
$DIMALTU
 70
     2
  9
$DIMALTTD
 70
     3
  9
$DIMTXSTY
  7
Standard
  9
$DIMAUNIT
 70
     0
  9
$DIMADEC
 70
     2
  9
$DIMALTRND
 40
0.0
  9
$DIMAZIN
 70
     0
  9
$DIMDSEP
 70
    44
  9
$DIMATFIT
 70
     3
  9
$DIMFRAC
 70
     0
  9
$DIMLDRBLK
  1

  9
$DIMLUNIT
 70
     2
  9
$DIMLWD
 70
    -2
  9
$DIMLWE
 70
    -2
  9
$DIMTMOVE
 70
     0
  9
$LUNITS
 70
     2
  9
$LUPREC
 70
     2
  9
$SKETCHINC
 40
1.0
  9
$FILLETRAD
 40
10.0
  9
$AUNITS
 70
     0
  9
$AUPREC
 70
     2
  9
$MENU
  1
.
  9
$ELEVATION
 40
0.0
  9
$PELEVATION
 40
0.0
  9
$THICKNESS
 40
0.0
  9
$LIMCHECK
 70
     0
  9
$CHAMFERA
 40
0.0
  9
$CHAMFERB
 40
0.0
  9
$CHAMFERC
 40
0.0
  9
$CHAMFERD
 40
0.0
  9
$SKPOLY
 70
     0
  9
$TDCREATE
 40
2459935.709654456
  9
$TDUCREATE
 40
2459935.584654456
  9
$TDUPDATE
 40
2459935.709654641
  9
$TDUUPDATE
 40
2459935.584654641
  9
$TDINDWG
 40
0.0000000116
  9
$TDUSRTIMER
 40
0.0000000116
  9
$USRTIMER
 70
     1
  9
$ANGBASE
 50
0.0
  9
$ANGDIR
 70
     0
  9
$PDMODE
 70
     0
  9
$PDSIZE
 40
-1.0
  9
$PLINEWID
 40
0.0
  9
$SPLFRAME
 70
     0
  9
$SPLINETYPE
 70
     6
  9
$SPLINESEGS
 70
     8
  9
$HANDSEED
  5
F5
  9
$SURFTAB1
 70
     6
  9
$SURFTAB2
 70
     6
  9
$SURFTYPE
 70
     6
  9
$SURFU
 70
     6
  9
$SURFV
 70
     6
  9
$UCSBASE
  2

  9
$UCSNAME
  2

  9
$UCSORG
 10
0.0
 20
0.0
 30
0.0
  9
$UCSXDIR
 10
1.0
 20
0.0
 30
0.0
  9
$UCSYDIR
 10
0.0
 20
1.0
 30
0.0
  9
$UCSORTHOREF
  2

  9
$UCSORTHOVIEW
 70
     0
  9
$UCSORGTOP
 10
0.0
 20
0.0
 30
0.0
  9
$UCSORGBOTTOM
 10
0.0
 20
0.0
 30
0.0
  9
$UCSORGLEFT
 10
0.0
 20
0.0
 30
0.0
  9
$UCSORGRIGHT
 10
0.0
 20
0.0
 30
0.0
  9
$UCSORGFRONT
 10
0.0
 20
0.0
 30
0.0
  9
$UCSORGBACK
 10
0.0
 20
0.0
 30
0.0
  9
$PUCSBASE
  2

  9
$PUCSNAME
  2

  9
$PUCSORG
 10
0.0
 20
0.0
 30
0.0
  9
$PUCSXDIR
 10
1.0
 20
0.0
 30
0.0
  9
$PUCSYDIR
 10
0.0
 20
1.0
 30
0.0
  9
$PUCSORTHOREF
  2

  9
$PUCSORTHOVIEW
 70
     0
  9
$PUCSORGTOP
 10
0.0
 20
0.0
 30
0.0
  9
$PUCSORGBOTTOM
 10
0.0
 20
0.0
 30
0.0
  9
$PUCSORGLEFT
 10
0.0
 20
0.0
 30
0.0
  9
$PUCSORGRIGHT
 10
0.0
 20
0.0
 30
0.0
  9
$PUCSORGFRONT
 10
0.0
 20
0.0
 30
0.0
  9
$PUCSORGBACK
 10
0.0
 20
0.0
 30
0.0
  9
$USERI1
 70
     0
  9
$USERI2
 70
     0
  9
$USERI3
 70
     0
  9
$USERI4
 70
     0
  9
$USERI5
 70
     0
  9
$USERR1
 40
0.0
  9
$USERR2
 40
0.0
  9
$USERR3
 40
0.0
  9
$USERR4
 40
0.0
  9
$USERR5
 40
0.0
  9
$WORLDVIEW
 70
     1
  9
$SHADEDGE
 70
     3
  9
$SHADEDIF
 70
    70
  9
$TILEMODE
 70
     1
  9
$MAXACTVP
 70
    64
  9
$PINSBASE
 10
0.0
 20
0.0
 30
0.0
  9
$PLIMCHECK
 70
     0
  9
$PEXTMIN
 10
1.0000000000E+20
 20
1.0000000000E+20
 30
1.0000000000E+20
  9
$PEXTMAX
 10
-1.0000000000E+20
 20
-1.0000000000E+20
 30
-1.0000000000E+20
  9
$PLIMMIN
 10
0.0
 20
0.0
  9
$PLIMMAX
 10
420.0
 20
297.0
  9
$UNITMODE
 70
     0
  9
$VISRETAIN
 70
     1
  9
$PLINEGEN
 70
     0
  9
$PSLTSCALE
 70
     1
  9
$TREEDEPTH
 70
  3020
  9
$CMLSTYLE
  2
Standard
  9
$CMLJUST
 70
     0
  9
$CMLSCALE
 40
20.0
  9
$PROXYGRAPHICS
 70
     1
  9
$MEASUREMENT
 70
     1
  9
$CELWEIGHT
370
    -1
  9
$ENDCAPS
280
     0
  9
$JOINSTYLE
280
     0
  9
$LWDISPLAY
290
     1
  9
$INSUNITS
 70
     4
  9
$HYPERLINKBASE
  1

  9
$STYLESHEET
  1

  9
$XEDIT
290
     1
  9
$CEPSNTYPE
380
     0
  9
$PSTYLEMODE
290
     1
  9
$FINGERPRINTGUID
  2
{4a62ec7b-4d0a-4dec-8ed5-30cdc93809d7}
  9
$VERSIONGUID
  2
{FAEB1C32-E019-11D5-929B-00C0DF256EC4}
  9
$EXTNAMES
290
     1
  9
$PSVPSCALE
 40
0.0
  9
$OLESTARTUP
290
     0
  0
ENDSEC
  0
SECTION
  2
CLASSES
  0
CLASS
  1
ACDBDICTIONARYWDFLT
  2
AcDbDictionaryWithDefault
  3
ObjectDBX Classes
 90
        0
280
     0
281
     0
  0
CLASS
  1
VISUALSTYLE
  2
AcDbVisualStyle
  3
ObjectDBX Classes
 90
     4095
280
     0
281
     0
  0
CLASS
  1
MATERIAL
  2
AcDbMaterial
  3
ObjectDBX Classes
 90
     1153
280
     0
281
     0
  0
CLASS
  1
SCALE
  2
AcDbScale
  3
ObjectDBX Classes
 90
     1153
280
     0
281
     0
  0
CLASS
  1
TABLESTYLE
  2
AcDbTableStyle
  3
ObjectDBX Classes
 90
     4095
280
     0
281
     0
  0
CLASS
  1
MLEADERSTYLE
  2
AcDbMLeaderStyle
  3
ACDB_MLEADERSTYLE_CLASS
 90
     4095
280
     0
281
     0
  0
CLASS
  1
SUN
  2
AcDbSun
  3
SCENEOE
 90
     1153
280
     0
281
     0
  0
CLASS
  1
ACDBPLACEHOLDER
  2
AcDbPlaceHolder
  3
ObjectDBX Classes
 90
        0
280
     0
281
     0
  0
CLASS
  1
LAYOUT
  2
AcDbLayout
  3
ObjectDBX Classes
 90
        0
280
     0
281
     0
  0
ENDSEC
  0
SECTION
  2
TABLES
  0
TABLE
  2
VPORT
  5
8
330
0
100
AcDbSymbolTable
 70
     1
  0
VPORT
  5
29
330
8
100
AcDbSymbolTableRecord
100
AcDbViewportTableRecord
  2
*Active
 70
     0
 10
0.0
 20
0.0
 11
1.0
 21
1.0
 12
139.7
 22
107.95
 13
0.0
 23
0.0
 14
10.0
 24
10.0
 15
10.0
 25
10.0
 16
0.0
 26
0.0
 36
1.0
 17
0.0
 27
0.0
 37
0.0
 40
215.9
 41
1.2941176471
 42
50.0
 43
0.0
 44
0.0
 50
0.0
 51
0.0
 71
     0
 72
  2000
 73
     1
 74
     3
 75
     0
 76
     0
 77
     0
 78
     0
281
     0
 65
     1
110
0.0
120
0.0
130
0.0
111
1.0
121
0.0
131
0.0
112
0.0
122
1.0
132
0.0
 79
     0
146
0.0
  0
ENDTAB
  0
TABLE
  2
LTYPE
  5
5
330
0
100
AcDbSymbolTable
 70
     6
  0
LTYPE
  5
14
330
5
100
AcDbSymbolTableRecord
100
AcDbLinetypeTableRecord
  2
ByBlock
 70
     0
  3

 72
    65
 73
     0
 40
0.0
  0
LTYPE
  5
15
330
5
100
AcDbSymbolTableRecord
100
AcDbLinetypeTableRecord
  2
ByLayer
 70
     0
  3

 72
    65
 73
     0
 40
0.0
  0
LTYPE
  5
16
330
5
100
AcDbSymbolTableRecord
100
AcDbLinetypeTableRecord
  2
Continuous
 70
     0
  3
Solid line
 72
    65
 73
     0
 40
0.0
  0
LTYPE
  5
6E
330
5
100
AcDbSymbolTableRecord
100
AcDbLinetypeTableRecord
  2
HIDDEN
 70
     0
  3
Hidden __ __ __ __ __ __ __ __ __ __ __ __ __ __
 72
    65
 73
     2
 40
1.905
 49
1.27
 74
     0
 49
-0.635
 74
     0
  0
LTYPE
  5
6F
330
5
100
AcDbSymbolTableRecord
100
AcDbLinetypeTableRecord
  2
PHANTOM
 70
     0
  3
Phantom ______  __  __  ______  __  __  ______
 72
    65
 73
     6
 40
12.7
 49
6.35
 74
     0
 49
-1.27
 74
     0
 49
1.27
 74
     0
 49
-1.27
 74
     0
 49
1.27
 74
     0
 49
-1.27
 74
     0
  0
LTYPE
  5
70
330
5
100
AcDbSymbolTableRecord
100
AcDbLinetypeTableRecord
  2
CENTER
 70
     0
  3
Center ____ _ ____ _ ____ _ ____ _ ____ _ ____
 72
    65
 73
     4
 40
10.16
 49
6.35
 74
     0
 49
-1.27
 74
     0
 49
1.27
 74
     0
 49
-1.27
 74
     0
  0
LTYPE
  5
71
330
5
100
AcDbSymbolTableRecord
100
AcDbLinetypeTableRecord
  2
CENTERX2
 70
     0
  3
Center (2x) ________  __  ________  __  _____
 72
    65
 73
     4
 40
20.32
 49
12.7
 74
     0
 49
-2.54
 74
     0
 49
2.54
 74
     0
 49
-2.54
 74
     0
  0
LTYPE
  5
72
330
5
100
AcDbSymbolTableRecord
100
AcDbLinetypeTableRecord
  2
DOT2
 70
     0
  3
Dot (.5x) ........................................
 72
    65
 73
     2
 40
0.635
 49
0.0
 74
     0
 49
-0.635
 74
     0
  0
ENDTAB
  0
TABLE
  2
LAYER
  5
2
330
0
100
AcDbSymbolTable
 70
    17
  0
LAYER
  5
10
330
2
100
AcDbSymbolTableRecord
100
AcDbLayerTableRecord
  2
0
 70
     0
 62
     7
  6
Continuous
370
    -3
390
F
  0
LAYER
  5
73
330
2
100
AcDbSymbolTableRecord
100
AcDbLayerTableRecord
  2
FORMAT
 70
     0
 62
     7
  6
Continuous
370
    -3
390
F
  0
LAYER
  5
74
330
2
100
AcDbSymbolTableRecord
100
AcDbLayerTableRecord
  2
YARDIMCI_GEOMETRI
 70
     0
 62
    -6
  6
Continuous
290
     0
370
    -3
390
F
  0
LAYER
  5
75
330
2
100
AcDbSymbolTableRecord
100
AcDbLayerTableRecord
  2
SAYFA_CERCEVESI
 70
     0
 62
     7
  6
Continuous
370
    25
390
F
  0
LAYER
  5
76
330
2
100
AcDbSymbolTableRecord
100
AcDbLayerTableRecord
  2
ANTET
 70
     0
 62
     7
  6
Continuous
370
    -3
390
F
  0
LAYER
  5
77
330
2
100
AcDbSymbolTableRecord
100
AcDbLayerTableRecord
  2
OLCU
 70
     0
 62
   150
  6
Continuous
370
    -3
390
F
  0
LAYER
  5
78
330
2
100
AcDbSymbolTableRecord
100
AcDbLayerTableRecord
  2
METIN
 70
     0
 62
    96
  6
Continuous
370
    -3
390
F
  0
LAYER
  5
79
330
2
100
AcDbSymbolTableRecord
100
AcDbLayerTableRecord
  2
BALON
 70
     0
 62
     5
  6
Continuous
370
    -3
390
F
  0
LAYER
  5
7A
330
2
100
AcDbSymbolTableRecord
100
AcDbLayerTableRecord
  2
VURGU
 70
     0
 62
     7
  6
Continuous
370
    -3
390
F
  0
LAYER
  5
7B
330
2
100
AcDbSymbolTableRecord
100
AcDbLayerTableRecord
  2
SILIK
 70
     0
 62
     7
  6
Continuous
370
    -3
390
F
  0
LAYER
  5
7C
330
2
100
AcDbSymbolTableRecord
100
AcDbLayerTableRecord
  2
MODEL
 70
     0
 62
     7
  6
Continuous
370
    -3
390
F
  0
LAYER
  5
7D
330
2
100
AcDbSymbolTableRecord
100
AcDbLayerTableRecord
  2
DETAYLANDıRMA
 70
     0
 62
   190
  6
Continuous
370
    -3
390
F
  0
LAYER
  5
7E
330
2
100
AcDbSymbolTableRecord
100
AcDbLayerTableRecord
  2
TOLERANS
 70
     0
 62
   230
  6
Continuous
370
    -3
390
F
  0
LAYER
  5
7F
330
2
100
AcDbSymbolTableRecord
100
AcDbLayerTableRecord
  2
MERKEZ_CIZGILERI
 70
     0
 62
    30
  6
Continuous
370
    -3
390
F
  0
LAYER
  5
80
330
2
100
AcDbSymbolTableRecord
100
AcDbLayerTableRecord
  2
KESIT-DETAY_CIZGILERI
 70
     0
 62
     7
  6
Continuous
370
    -3
390
F
  0
LAYER
  5
81
330
2
100
AcDbSymbolTableRecord
100
AcDbLayerTableRecord
  2
\U+041E\U+0421\U+0415\U+0412\U+042B\U+0415
 70
     0
 62
     7
  6
Continuous
370
    -3
390
F
  0
LAYER
  5
82
330
2
100
AcDbSymbolTableRecord
100
AcDbLayerTableRecord
  2
\U+0412\U+041E\U+0414\U+042F\U+041D\U+042B\U+0415_\U+0417\U+041D\U+0410\U+041A\U+0418
 70
     0
 62
    11
  6
Continuous
370
    -3
390
F
  0
ENDTAB
  0
TABLE
  2
STYLE
  5
3
330
0
100
AcDbSymbolTable
 70
     1
  0
STYLE
  5
11
330
3
100
AcDbSymbolTableRecord
100
AcDbTextStyleTableRecord
  2
Standard
 70
     0
 40
0.0
 41
1.0
 50
0.0
 71
     0
 42
3.5
  3
txt
  4

  0
ENDTAB
  0
TABLE
  2
VIEW
  5
6
330
0
100
AcDbSymbolTable
 70
     0
  0
ENDTAB
  0
TABLE
  2
UCS
  5
7
330
0
100
AcDbSymbolTable
 70
     0
  0
ENDTAB
  0
TABLE
  2
APPID
  5
9
330
0
100
AcDbSymbolTable
 70
     1
  0
APPID
  5
12
330
9
100
AcDbSymbolTableRecord
100
AcDbRegAppTableRecord
  2
ACAD
 70
     0
  0
ENDTAB
  0
TABLE
  2
DIMSTYLE
  5
A
330
0
100
AcDbSymbolTable
 70
     1
100
AcDbDimStyleTable
  0
DIMSTYLE
105
27
330
A
100
AcDbSymbolTableRecord
100
AcDbDimStyleTableRecord
  2
ISO-25
 70
     0
 41
2.5
 42
0.625
 43
3.75
 44
1.25
 73
     0
 74
     0
 77
     1
 78
     8
140
2.5
141
2.5
143
0.0393700787
147
0.625
171
     3
172
     1
178
     0
271
     2
272
     2
274
     3
278
    44
283
     0
284
     8
340
11
  0
ENDTAB
  0
TABLE
  2
BLOCK_RECORD
  5
1
330
0
100
AcDbSymbolTable
 70
     2
  0
BLOCK_RECORD
  5
1F
330
1
100
AcDbSymbolTableRecord
100
AcDbBlockTableRecord
  2
*Model_Space
340
22
  0
BLOCK_RECORD
  5
1B
330
1
100
AcDbSymbolTableRecord
100
AcDbBlockTableRecord
  2
*Paper_Space
340
1E
  0
BLOCK_RECORD
  5
23
330
1
100
AcDbSymbolTableRecord
100
AcDbBlockTableRecord
  2
*Paper_Space0
340
26
  0
BLOCK_RECORD
  5
88
330
1
100
AcDbSymbolTableRecord
100
AcDbBlockTableRecord
  2
SW_CENTERMARKSYMBOL_0
340
0
102
{BLKREFS
331
93
102
}
  0
ENDTAB
  0
ENDSEC
  0
SECTION
  2
BLOCKS
  0
BLOCK
  5
20
330
1F
100
AcDbEntity
  8
0
100
AcDbBlockBegin
  2
*Model_Space
 70
     0
 10
0.0
 20
0.0
 30
0.0
  3
*Model_Space
  1

  0
ENDBLK
  5
21
330
1F
100
AcDbEntity
  8
0
100
AcDbBlockEnd
  0
BLOCK
  5
1C
330
1B
100
AcDbEntity
 67
     1
  8
0
100
AcDbBlockBegin
  2
*Paper_Space
 70
     0
 10
0.0
 20
0.0
 30
0.0
  3
*Paper_Space
  1

  0
ENDBLK
  5
1D
330
1B
100
AcDbEntity
 67
     1
  8
0
100
AcDbBlockEnd
  0
BLOCK
  5
24
330
23
100
AcDbEntity
  8
0
100
AcDbBlockBegin
  2
*Paper_Space0
 70
     0
 10
0.0
 20
0.0
 30
0.0
  3
*Paper_Space0
  1

  0
ENDBLK
  5
25
330
23
100
AcDbEntity
  8
0
100
AcDbBlockEnd
  0
BLOCK
  5
89
330
88
100
AcDbEntity
  8
0
100
AcDbBlockBegin
  2
SW_CENTERMARKSYMBOL_0
 70
     0
 10
0.0
 20
0.0
 30
0.0
  3
SW_CENTERMARKSYMBOL_0
  1

  0
LINE
  5
8B
330
88
100
AcDbEntity
  8
FORMAT
 62
     0
100
AcDbLine
 10
0.0
 20
0.0
 30
0.0
 11
0.0
 21
2.5
 31
0.0
  0
LINE
  5
8C
330
88
100
AcDbEntity
  8
FORMAT
 62
     0
100
AcDbLine
 10
0.0
 20
0.0
 30
0.0
 11
-2.5
 21
0.0
 31
0.0
  0
LINE
  5
8D
330
88
100
AcDbEntity
  8
FORMAT
 62
     0
100
AcDbLine
 10
0.0
 20
0.0
 30
0.0
 11
0.0
 21
-2.5
 31
0.0
  0
LINE
  5
8E
330
88
100
AcDbEntity
  8
FORMAT
 62
     0
100
AcDbLine
 10
0.0
 20
0.0
 30
0.0
 11
2.5
 21
0.0
 31
0.0
  0
LINE
  5
8F
330
88
100
AcDbEntity
  8
FORMAT
 62
     0
100
AcDbLine
 10
0.0
 20
5.0
 30
0.0
 11
0.0
 21
46.95
 31
0.0
  0
LINE
  5
90
330
88
100
AcDbEntity
  8
FORMAT
 62
     0
100
AcDbLine
 10
-5.0
 20
0.0
 30
0.0
 11
-46.95
 21
0.0
 31
0.0
  0
LINE
  5
91
330
88
100
AcDbEntity
  8
FORMAT
 62
     0
100
AcDbLine
 10
0.0
 20
-5.0
 30
0.0
 11
0.0
 21
-46.95
 31
0.0
  0
LINE
  5
92
330
88
100
AcDbEntity
  8
FORMAT
 62
     0
100
AcDbLine
 10
5.0
 20
0.0
 30
0.0
 11
46.95
 21
0.0
 31
0.0
  0
ENDBLK
  5
8A
330
88
100
AcDbEntity
  8
0
100
AcDbBlockEnd
  0
ENDSEC
  0
SECTION
  2
ENTITIES
  0
CIRCLE
  5
83
330
1F
100
AcDbEntity
  8
0
  6
Continuous
 62
     7
370
    25
100
AcDbCircle
 10
137.9424909615
 20
108.5958316346
 30
0.0
 40
36.49999999999997
  0
CIRCLE
  5
84
330
1F
100
AcDbEntity
  8
0
  6
Continuous
 62
     7
370
    25
100
AcDbCircle
 10
137.9424909615
 20
108.5958316346
 30
0.0
 40
31.29999999999998
  0
CIRCLE
  5
85
330
1F
100
AcDbEntity
  8
0
  6
Continuous
 62
     7
370
    25
100
AcDbCircle
 10
137.9424909615
 20
108.5958316346
 30
0.0
 40
39.00000000000003
  0
CIRCLE
  5
86
330
1F
100
AcDbEntity
  8
0
  6
Continuous
 62
     7
370
    25
100
AcDbCircle
 10
137.9424909615
 20
108.5958316346
 30
0.0
 40
44.44999999999999
  0
CIRCLE
  5
87
330
1F
100
AcDbEntity
  8
0
  6
Continuous
 62
     7
370
    25
100
AcDbCircle
 10
137.9424909615
 20
108.5958316346
 30
0.0
 40
30.69999999999999
  0
INSERT
  5
93
330
1F
100
AcDbEntity
  8
FORMAT
 62
     7
100
AcDbBlockReference
  2
SW_CENTERMARKSYMBOL_0
 10
137.9424909615
 20
108.5958316346
 30
0.0
  0
LINE
  5
94
330
1F
100
AcDbEntity
  8
0
  6
Continuous
 62
     7
370
    25
100
AcDbLine
 10
413.8808458724
 20
153.0458316346
 30
0.0
 11
385.8808458724
 21
146.0958316346
 31
0.0
  0
LINE
  5
95
330
1F
100
AcDbEntity
  8
0
  6
Continuous
 62
     7
370
    25
100
AcDbLine
 10
385.8808458724
 20
71.0958316346
 30
0.0
 11
413.8808458724
 21
64.1458316346
 31
0.0
  0
LINE
  5
96
330
1F
100
AcDbEntity
  8
0
  6
Continuous
 62
     7
370
    25
100
AcDbLine
 10
515.8808458724
 20
153.0458316346
 30
0.0
 11
413.8808458724
 21
153.0458316346
 31
0.0
  0
LINE
  5
97
330
1F
100
AcDbEntity
  8
0
  6
Continuous
 62
     7
370
    25
100
AcDbLine
 10
413.8808458724
 20
64.1458316346
 30
0.0
 11
515.8808458724
 21
64.1458316346
 31
0.0
  0
LINE
  5
98
330
1F
100
AcDbEntity
  8
0
  6
Continuous
 62
     7
370
    25
100
AcDbLine
 10
743.3808458724
 20
147.5958316346
 30
0.0
 11
515.8808458724
 21
147.5958316346
 31
0.0
  0
LINE
  5
99
330
1F
100
AcDbEntity
  8
0
  6
Continuous
 62
     7
370
    25
100
AcDbLine
 10
515.8808458724
 20
69.5958316346
 30
0.0
 11
743.3808458724
 21
69.5958316346
 31
0.0
  0
LINE
  5
9A
330
1F
100
AcDbEntity
  8
0
  6
Continuous
 62
     7
370
    25
100
AcDbLine
 10
385.8808458724
 20
146.0958316346
 30
0.0
 11
315.8808458724
 21
146.0958316346
 31
0.0
  0
LINE
  5
9B
330
1F
100
AcDbEntity
  8
0
  6
Continuous
 62
     7
370
    25
100
AcDbLine
 10
315.8808458724
 20
71.0958316346
 30
0.0
 11
385.8808458724
 21
71.0958316346
 31
0.0
  0
LINE
  5
9C
330
1F
100
AcDbEntity
  8
0
  6
Continuous
 62
     7
370
    25
100
AcDbLine
 10
793.3808458724
 20
145.0958316346
 30
0.0
 11
743.3808458724
 21
145.0958316346
 31
0.0
  0
LINE
  5
9D
330
1F
100
AcDbEntity
  8
0
  6
Continuous
 62
     7
370
    25
100
AcDbLine
 10
743.3808458724
 20
72.0958316346
 30
0.0
 11
793.3808458724
 21
72.0958316346
 31
0.0
  0
LINE
  5
9E
330
1F
100
AcDbEntity
  8
0
  6
Continuous
 62
     7
370
    25
100
AcDbLine
 10
385.8808458724
 20
146.0958316346
 30
0.0
 11
385.8808458724
 21
71.0958316346
 31
0.0
  0
LINE
  5
9F
330
1F
100
AcDbEntity
  8
0
  6
Continuous
 62
     7
370
    25
100
AcDbLine
 10
413.8808458724
 20
153.0458316346
 30
0.0
 11
413.8808458724
 21
64.1458316346
 31
0.0
  0
LINE
  5
A0
330
1F
100
AcDbEntity
  8
0
  6
Continuous
 62
     7
370
    25
100
AcDbLine
 10
515.8808458724
 20
153.0458316346
 30
0.0
 11
515.8808458724
 21
64.1458316346
 31
0.0
  0
LINE
  5
A1
330
1F
100
AcDbEntity
  8
0
  6
Continuous
 62
     7
370
    25
100
AcDbLine
 10
743.3808458724
 20
147.5958316346
 30
0.0
 11
743.3808458724
 21
69.5958316346
 31
0.0
  0
LINE
  5
A2
330
1F
100
AcDbEntity
  8
0
  6
Continuous
 62
     7
370
    25
100
AcDbLine
 10
315.8808458724
 20
146.0958316346
 30
0.0
 11
315.8808458724
 21
71.0958316346
 31
0.0
  0
LINE
  5
A3
330
1F
100
AcDbEntity
  8
0
  6
Continuous
 62
     7
370
    25
100
AcDbLine
 10
793.3808458724
 20
145.0958316346
 30
0.0
 11
793.3808458724
 21
72.0958316346
 31
0.0
  0
LINE
  5
A4
330
1F
100
AcDbEntity
  8
0
  6
Continuous
 62
     7
370
    25
100
AcDbLine
 10
-122.6169943592
 20
64.1458316346
 30
0.0
 11
-94.6169943592
 21
71.0958316346
 31
0.0
  0
LINE
  5
A5
330
1F
100
AcDbEntity
  8
0
  6
Continuous
 62
     7
370
    25
100
AcDbLine
 10
-94.6169943592
 20
146.0958316346
 30
0.0
 11
-122.6169943592
 21
153.0458316346
 31
0.0
  0
LINE
  5
A6
330
1F
100
AcDbEntity
  8
0
  6
Continuous
 62
     7
370
    25
100
AcDbLine
 10
-224.6169943592
 20
64.1458316346
 30
0.0
 11
-122.6169943592
 21
64.1458316346
 31
0.0
  0
LINE
  5
A7
330
1F
100
AcDbEntity
  8
0
  6
Continuous
 62
     7
370
    25
100
AcDbLine
 10
-122.6169943592
 20
153.0458316346
 30
0.0
 11
-224.6169943592
 21
153.0458316346
 31
0.0
  0
LINE
  5
A8
330
1F
100
AcDbEntity
  8
0
  6
Continuous
 62
     7
370
    25
100
AcDbLine
 10
-452.1169943592
 20
69.5958316346
 30
0.0
 11
-224.6169943592
 21
69.5958316346
 31
0.0
  0
LINE
  5
A9
330
1F
100
AcDbEntity
  8
0
  6
Continuous
 62
     7
370
    25
100
AcDbLine
 10
-224.6169943592
 20
147.5958316346
 30
0.0
 11
-452.1169943592
 21
147.5958316346
 31
0.0
  0
LINE
  5
AA
330
1F
100
AcDbEntity
  8
0
  6
Continuous
 62
     7
370
    25
100
AcDbLine
 10
-94.6169943592
 20
71.0958316346
 30
0.0
 11
-24.6169943592
 21
71.0958316346
 31
0.0
  0
LINE
  5
AB
330
1F
100
AcDbEntity
  8
0
  6
Continuous
 62
     7
370
    25
100
AcDbLine
 10
-24.6169943592
 20
146.0958316346
 30
0.0
 11
-94.6169943592
 21
146.0958316346
 31
0.0
  0
LINE
  5
AC
330
1F
100
AcDbEntity
  8
0
  6
Continuous
 62
     7
370
    25
100
AcDbLine
 10
-502.1169943592
 20
72.0958316346
 30
0.0
 11
-452.1169943592
 21
72.0958316346
 31
0.0
  0
LINE
  5
AD
330
1F
100
AcDbEntity
  8
0
  6
Continuous
 62
     7
370
    25
100
AcDbLine
 10
-452.1169943592
 20
145.0958316346
 30
0.0
 11
-502.1169943592
 21
145.0958316346
 31
0.0
  0
LINE
  5
AE
330
1F
100
AcDbEntity
  8
0
  6
Continuous
 62
     7
370
    25
100
AcDbLine
 10
-94.6169943592
 20
108.5958316346
 30
0.0
 11
-94.6169943592
 21
146.0958316346
 31
0.0
  0
LINE
  5
AF
330
1F
100
AcDbEntity
  8
0
  6
Continuous
 62
     7
370
    25
100
AcDbLine
 10
-94.6169943592
 20
71.0958316346
 30
0.0
 11
-94.6169943592
 21
108.5958316346
 31
0.0
  0
LINE
  5
B0
330
1F
100
AcDbEntity
  8
0
  6
Continuous
 62
     7
370
    25
100
AcDbLine
 10
-122.6169943592
 20
108.5958316346
 30
0.0
 11
-122.6169943592
 21
153.0458316346
 31
0.0
  0
LINE
  5
B1
330
1F
100
AcDbEntity
  8
0
  6
Continuous
 62
     7
370
    25
100
AcDbLine
 10
-122.6169943592
 20
64.1458316346
 30
0.0
 11
-122.6169943592
 21
108.5958316346
 31
0.0
  0
LINE
  5
B2
330
1F
100
AcDbEntity
  8
0
  6
Continuous
 62
     7
370
    25
100
AcDbLine
 10
-224.6169943592
 20
108.5958316346
 30
0.0
 11
-224.6169943592
 21
153.0458316346
 31
0.0
  0
LINE
  5
B3
330
1F
100
AcDbEntity
  8
0
  6
Continuous
 62
     7
370
    25
100
AcDbLine
 10
-224.6169943592
 20
64.1458316346
 30
0.0
 11
-224.6169943592
 21
108.5958316346
 31
0.0
  0
LINE
  5
B4
330
1F
100
AcDbEntity
  8
0
  6
Continuous
 62
     7
370
    25
100
AcDbLine
 10
-452.1169943592
 20
108.5958316346
 30
0.0
 11
-452.1169943592
 21
147.5958316346
 31
0.0
  0
LINE
  5
B5
330
1F
100
AcDbEntity
  8
0
  6
Continuous
 62
     7
370
    25
100
AcDbLine
 10
-452.1169943592
 20
69.5958316346
 30
0.0
 11
-452.1169943592
 21
108.5958316346
 31
0.0
  0
LINE
  5
B6
330
1F
100
AcDbEntity
  8
0
  6
Continuous
 62
     7
370
    25
100
AcDbLine
 10
-24.6169943592
 20
108.5958316346
 30
0.0
 11
-24.6169943592
 21
146.0958316346
 31
0.0
  0
LINE
  5
B7
330
1F
100
AcDbEntity
  8
0
  6
Continuous
 62
     7
370
    25
100
AcDbLine
 10
-24.6169943592
 20
71.0958316346
 30
0.0
 11
-24.6169943592
 21
108.5958316346
 31
0.0
  0
LINE
  5
B8
330
1F
100
AcDbEntity
  8
0
  6
Continuous
 62
     7
370
    25
100
AcDbLine
 10
-502.1169943592
 20
108.5958316346
 30
0.0
 11
-502.1169943592
 21
145.0958316346
 31
0.0
  0
LINE
  5
B9
330
1F
100
AcDbEntity
  8
0
  6
Continuous
 62
     7
370
    25
100
AcDbLine
 10
-502.1169943592
 20
72.0958316346
 30
0.0
 11
-502.1169943592
 21
108.5958316346
 31
0.0
  0
LINE
  5
BA
330
1F
100
AcDbEntity
  8
0
  6
Continuous
 62
     7
370
    25
100
AcDbLine
 10
93.4924909615
 20
336.9075318896
 30
0.0
 11
100.4424909615
 21
308.9075318896
 31
0.0
  0
LINE
  5
BB
330
1F
100
AcDbEntity
  8
0
  6
Continuous
 62
     7
370
    25
100
AcDbLine
 10
175.4424909615
 20
308.9075318896
 30
0.0
 11
182.3924909615
 21
336.9075318896
 31
0.0
  0
LINE
  5
BC
330
1F
100
AcDbEntity
  8
0
  6
Continuous
 62
     7
370
    25
100
AcDbLine
 10
93.4924909615
 20
438.9075318896
 30
0.0
 11
93.4924909615
 21
336.9075318896
 31
0.0
  0
LINE
  5
BD
330
1F
100
AcDbEntity
  8
0
  6
Continuous
 62
     7
370
    25
100
AcDbLine
 10
182.3924909615
 20
336.9075318896
 30
0.0
 11
182.3924909615
 21
438.9075318896
 31
0.0
  0
LINE
  5
BE
330
1F
100
AcDbEntity
  8
0
  6
Continuous
 62
     7
370
    25
100
AcDbLine
 10
98.9424909615
 20
666.4075318896
 30
0.0
 11
98.9424909615
 21
438.9075318896
 31
0.0
  0
LINE
  5
BF
330
1F
100
AcDbEntity
  8
0
  6
Continuous
 62
     7
370
    25
100
AcDbLine
 10
176.9424909615
 20
438.9075318896
 30
0.0
 11
176.9424909615
 21
666.4075318896
 31
0.0
  0
LINE
  5
C0
330
1F
100
AcDbEntity
  8
0
  6
Continuous
 62
     7
370
    25
100
AcDbLine
 10
100.4424909615
 20
308.9075318896
 30
0.0
 11
100.4424909615
 21
238.9075318896
 31
0.0
  0
LINE
  5
C1
330
1F
100
AcDbEntity
  8
0
  6
Continuous
 62
     7
370
    25
100
AcDbLine
 10
175.4424909615
 20
238.9075318896
 30
0.0
 11
175.4424909615
 21
308.9075318896
 31
0.0
  0
LINE
  5
C2
330
1F
100
AcDbEntity
  8
0
  6
Continuous
 62
     7
370
    25
100
AcDbLine
 10
101.4424909615
 20
716.4075318896
 30
0.0
 11
101.4424909615
 21
666.4075318896
 31
0.0
  0
LINE
  5
C3
330
1F
100
AcDbEntity
  8
0
  6
Continuous
 62
     7
370
    25
100
AcDbLine
 10
174.4424909615
 20
666.4075318896
 30
0.0
 11
174.4424909615
 21
716.4075318896
 31
0.0
  0
LINE
  5
C4
330
1F
100
AcDbEntity
  8
0
  6
Continuous
 62
     7
370
    25
100
AcDbLine
 10
100.4424909615
 20
308.9075318896
 30
0.0
 11
175.4424909615
 21
308.9075318896
 31
0.0
  0
LINE
  5
C5
330
1F
100
AcDbEntity
  8
0
  6
Continuous
 62
     7
370
    25
100
AcDbLine
 10
93.4924909615
 20
336.9075318896
 30
0.0
 11
182.3924909615
 21
336.9075318896
 31
0.0
  0
LINE
  5
C6
330
1F
100
AcDbEntity
  8
0
  6
Continuous
 62
     7
370
    25
100
AcDbLine
 10
93.4924909615
 20
438.9075318896
 30
0.0
 11
182.3924909615
 21
438.9075318896
 31
0.0
  0
LINE
  5
C7
330
1F
100
AcDbEntity
  8
0
  6
Continuous
 62
     7
370
    25
100
AcDbLine
 10
98.9424909615
 20
666.4075318896
 30
0.0
 11
176.9424909615
 21
666.4075318896
 31
0.0
  0
LINE
  5
C8
330
1F
100
AcDbEntity
  8
0
  6
Continuous
 62
     7
370
    25
100
AcDbLine
 10
100.4424909615
 20
238.9075318896
 30
0.0
 11
175.4424909615
 21
238.9075318896
 31
0.0
  0
LINE
  5
C9
330
1F
100
AcDbEntity
  8
0
  6
Continuous
 62
     7
370
    25
100
AcDbLine
 10
101.4424909615
 20
716.4075318896
 30
0.0
 11
174.4424909615
 21
716.4075318896
 31
0.0
  0
LINE
  5
CA
330
1F
100
AcDbEntity
  8
0
  6
Continuous
 62
     7
370
    25
100
AcDbLine
 10
182.3924909615
 20
-137.1095258172
 30
0.0
 11
175.4424909615
 21
-109.1095258172
 31
0.0
  0
LINE
  5
CB
330
1F
100
AcDbEntity
  8
0
  6
Continuous
 62
     7
370
    25
100
AcDbLine
 10
100.4424909615
 20
-109.1095258172
 30
0.0
 11
93.4924909615
 21
-137.1095258172
 31
0.0
  0
LINE
  5
CC
330
1F
100
AcDbEntity
  8
0
  6
Continuous
 62
     7
370
    25
100
AcDbLine
 10
182.3924909615
 20
-239.1095258172
 30
0.0
 11
182.3924909615
 21
-137.1095258172
 31
0.0
  0
LINE
  5
CD
330
1F
100
AcDbEntity
  8
0
  6
Continuous
 62
     7
370
    25
100
AcDbLine
 10
93.4924909615
 20
-137.1095258172
 30
0.0
 11
93.4924909615
 21
-239.1095258172
 31
0.0
  0
LINE
  5
CE
330
1F
100
AcDbEntity
  8
0
  6
Continuous
 62
     7
370
    25
100
AcDbLine
 10
176.9424909615
 20
-466.6095258172
 30
0.0
 11
176.9424909615
 21
-239.1095258172
 31
0.0
  0
LINE
  5
CF
330
1F
100
AcDbEntity
  8
0
  6
Continuous
 62
     7
370
    25
100
AcDbLine
 10
98.9424909615
 20
-239.1095258172
 30
0.0
 11
98.9424909615
 21
-466.6095258172
 31
0.0
  0
LINE
  5
D0
330
1F
100
AcDbEntity
  8
0
  6
Continuous
 62
     7
370
    25
100
AcDbLine
 10
175.4424909615
 20
-109.1095258172
 30
0.0
 11
175.4424909615
 21
-39.1095258172
 31
0.0
  0
LINE
  5
D1
330
1F
100
AcDbEntity
  8
0
  6
Continuous
 62
     7
370
    25
100
AcDbLine
 10
100.4424909615
 20
-39.1095258172
 30
0.0
 11
100.4424909615
 21
-109.1095258172
 31
0.0
  0
LINE
  5
D2
330
1F
100
AcDbEntity
  8
0
  6
Continuous
 62
     7
370
    25
100
AcDbLine
 10
174.4424909615
 20
-516.6095258172
 30
0.0
 11
174.4424909615
 21
-466.6095258172
 31
0.0
  0
LINE
  5
D3
330
1F
100
AcDbEntity
  8
0
  6
Continuous
 62
     7
370
    25
100
AcDbLine
 10
101.4424909615
 20
-466.6095258172
 30
0.0
 11
101.4424909615
 21
-516.6095258172
 31
0.0
  0
LINE
  5
D4
330
1F
100
AcDbEntity
  8
0
  6
Continuous
 62
     7
370
    25
100
AcDbLine
 10
175.4424909615
 20
-109.1095258172
 30
0.0
 11
100.4424909615
 21
-109.1095258172
 31
0.0
  0
LINE
  5
D5
330
1F
100
AcDbEntity
  8
0
  6
Continuous
 62
     7
370
    25
100
AcDbLine
 10
182.3924909615
 20
-137.1095258172
 30
0.0
 11
93.4924909615
 21
-137.1095258172
 31
0.0
  0
LINE
  5
D6
330
1F
100
AcDbEntity
  8
0
  6
Continuous
 62
     7
370
    25
100
AcDbLine
 10
182.3924909615
 20
-239.1095258172
 30
0.0
 11
93.4924909615
 21
-239.1095258172
 31
0.0
  0
LINE
  5
D7
330
1F
100
AcDbEntity
  8
0
  6
Continuous
 62
     7
370
    25
100
AcDbLine
 10
176.9424909615
 20
-466.6095258172
 30
0.0
 11
98.9424909615
 21
-466.6095258172
 31
0.0
  0
LINE
  5
D8
330
1F
100
AcDbEntity
  8
0
  6
Continuous
 62
     7
370
    25
100
AcDbLine
 10
175.4424909615
 20
-39.1095258172
 30
0.0
 11
100.4424909615
 21
-39.1095258172
 31
0.0
  0
LINE
  5
D9
330
1F
100
AcDbEntity
  8
0
  6
Continuous
 62
     7
370
    25
100
AcDbLine
 10
174.4424909615
 20
-516.6095258172
 30
0.0
 11
101.4424909615
 21
-516.6095258172
 31
0.0
  0
LINE
  5
DA
330
1F
100
AcDbEntity
  8
0
  6
Continuous
 62
     7
370
    25
100
AcDbLine
 10
305.9482491751
 20
-96.7989027891
 30
0.0
 11
341.3035882344
 21
-117.2091055846
 31
0.0
  0
LINE
  5
DB
330
1F
100
AcDbEntity
  8
0
  6
Continuous
 62
     7
370
    25
100
AcDbLine
 10
377.8006219757
 20
-53.9875386309
 30
0.0
 11
342.4452829163
 21
-33.5773358353
 31
0.0
  0
LINE
  5
DC
330
1F
100
AcDbEntity
  8
0
  6
Continuous
 62
     7
370
    25
100
AcDbLine
 10
340.0536898187
 20
-119.3742277406
 30
0.0
 11
500.9204825386
 21
-212.2406504604
 31
0.0
  0
LINE
  5
DD
330
1F
100
AcDbEntity
  8
0
  6
Continuous
 62
     7
370
    25
100
AcDbLine
 10
539.9173131114
 20
-144.6888391947
 30
0.0
 11
379.0505203915
 21
-51.8224164749
 31
0.0
  0
LINE
  5
DE
330
1F
100
AcDbEntity
  8
0
  6
Continuous
 62
     7
370
    25
100
AcDbLine
 10
498.1957039922
 20
-216.9606167604
 30
0.0
 11
570.3205956732
 21
-258.5974304634
 31
0.0
  0
LINE
  5
DF
330
1F
100
AcDbEntity
  8
0
  6
Continuous
 62
     7
370
    25
100
AcDbLine
 10
614.7669833389
 20
-181.6056865977
 30
0.0
 11
542.6420916578
 21
-139.9688728948
 31
0.0
  0
LINE
  5
E0
330
1F
100
AcDbEntity
  8
0
  6
Continuous
 62
     7
370
    25
100
AcDbLine
 10
574.5670570228
 20
-260.2520078076
 30
0.0
 11
597.1768070931
 21
-265.4039795851
 31
0.0
  0
LINE
  5
E1
330
1F
100
AcDbEntity
  8
0
  6
Continuous
 62
     7
370
    25
100
AcDbLine
 10
634.0915965621
 20
-201.4587600764
 30
0.0
 11
618.3233874734
 21
-184.4556076166
 31
0.0
  0
LINE
  5
E2
330
1F
100
AcDbEntity
  8
0
  6
Continuous
 62
     7
370
    25
100
AcDbLine
 10
595.2528896489
 20
-264.965586045
 30
0.0
 11
643.0917778254
 21
-292.5823883491
 31
0.0
  0
LINE
  5
E3
330
1F
100
AcDbEntity
  8
0
  6
Continuous
 62
     7
370
    25
100
AcDbLine
 10
680.5887302992
 20
-227.6287236706
 30
0.0
 11
632.7498421227
 21
-200.0119213665
 31
0.0
  0
LWPOLYLINE
  5
E4
330
1F
100
AcDbEntity
  8
0
  6
Continuous
 62
     7
370
    25
100
AcDbPolyline
 90
       10
 70
   128
 43
0.0
 10
385.3615026184
 20
-70.698874067
 10
385.2410149231
 20
-67.891954363
 10
384.8806767983
 20
-65.2503542439
 10
384.283852624
 20
-62.7987376182
 10
383.4561147868
 20
-60.55999457
 10
382.4051916517
 20
-58.5550276397
 10
381.140895405
 20
-56.8025566635
 10
379.67503044
 20
-55.3189439907
 10
378.021283143
 20
-54.118041713
 10
377.8006219757
 20
-53.9875386309
  0
LWPOLYLINE
  5
E5
330
1F
100
AcDbEntity
  8
0
  6
Continuous
 62
     7
370
    25
100
AcDbPolyline
 90
       26
 70
   128
 43
0.0
 10
341.3035882344
 20
-117.2091055846
 10
341.9754960928
 20
-117.569427192
 10
343.8816065856
 20
-118.3260946303
 10
345.9340283009
 20
-118.7771916747
 10
348.1135983301
 20
-118.9185065534
 10
350.3999666152
 20
-118.7487198476
 10
352.7717859515
 20
-118.26941681
 10
355.2069113008
 20
-117.485072564
 10
357.6826065539
 20
-116.4030103203
 10
360.1757568113
 20
-115.0333330026
 10
362.6630842007
 20
-113.3888289191
 10
365.1213652165
 20
-111.4848523612
 10
367.5276475512
 20
-109.3391802451
 10
369.859464395
 20
-106.9718461331
 10
372.0950442023
 20
-104.4049531862
 10
374.2135139667
 20
-101.662467792
 10
376.1950941069
 20
-98.7699957978
 10
378.021283143
 20
-95.7545434353
 10
379.67503044
 20
-92.6442651707
 10
381.140895405
 20
-89.4682008341
 10
382.4051916517
 20
-86.2560044825
 10
383.4561147868
 20
-83.0376675279
 10
384.283852624
 20
-79.8432387151
 10
384.8806767983
 20
-76.7025435653
 10
385.2410149231
 20
-73.6449059029
 10
385.3615026184
 20
-70.698874067
  0
LWPOLYLINE
  5
E6
330
1F
100
AcDbEntity
  8
0
  6
Continuous
 62
     7
370
    25
100
AcDbPolyline
 90
       66
 70
   128
 43
0.0
 10
350.006163559
 20
-50.2886712714
 10
349.8856758637
 20
-47.4817515674
 10
349.5253377389
 20
-44.8401514483
 10
348.9285135647
 20
-42.3885348227
 10
348.1007757274
 20
-40.1497917744
 10
347.0498525924
 20
-38.1448248442
 10
345.7855563456
 20
-36.392353868
 10
344.3196913807
 20
-34.9087411951
 10
342.6659440837
 20
-33.7078389174
 10
340.8397550476
 20
-32.8008595358
 10
338.8581749074
 20
-32.1962712725
 10
336.739705143
 20
-31.8997190052
 10
334.5041253357
 20
-31.9139715625
 10
332.1723084919
 20
-32.2388958721
 10
329.7660261572
 20
-32.8714582032
 10
327.3077451414
 20
-33.8057524919
 10
324.8204177519
 20
-35.0330554841
 10
322.3272674946
 20
-36.5419081824
 10
319.8515722414
 20
-38.3182228357
 10
317.4164468921
 20
-40.3454144727
 10
315.0446275559
 20
-42.6045557513
 10
312.7582592708
 20
-45.074553678
 10
310.5786892416
 20
-47.7323465478
 10
308.5262675263
 20
-50.5531192647
 10
306.6201570334
 20
-53.5105350338
 10
304.8781546032
 20
-56.576981261
 10
303.3165248429
 20
-59.723827364
 10
301.9498482688
 20
-62.9216920887
 10
300.7908851719
 20
-66.1407178337
 10
299.8504564784
 20
-69.350849423
 10
299.1373427175
 20
-72.5221147228
 10
298.6582020403
 20
-75.6249044835
 10
298.4175080543
 20
-78.6302487931
 10
298.4175080543
 20
-81.5100875615
 10
298.6582020403
 20
-84.2375325101
 10
299.1373427175
 20
-86.7871182203
 10
299.8504564784
 20
-89.1350398971
 10
300.7908851719
 20
-91.2593756286
 10
301.9498482688
 20
-93.1402910644
 10
303.3165248429
 20
-94.7602246039
 10
304.8781546032
 20
-96.104051364
 10
306.6201570334
 20
-97.1592243964
 10
308.5262675263
 20
-97.9158918348
 10
310.5786892416
 20
-98.3669888791
 10
312.7582592708
 20
-98.5083037579
 10
315.0446275559
 20
-98.3385170521
 10
317.4164468921
 20
-97.8592140145
 10
319.8515722414
 20
-97.0748697684
 10
322.3272674946
 20
-95.9928075247
 10
324.8204177519
 20
-94.6231302071
 10
327.3077451414
 20
-92.9786261235
 10
329.7660261572
 20
-91.0746495656
 10
332.1723084919
 20
-88.9289774495
 10
334.5041253357
 20
-86.5616433376
 10
336.739705143
 20
-83.9947503906
 10
338.8581749074
 20
-81.2522649964
 10
340.8397550476
 20
-78.3597930022
 10
342.6659440837
 20
-75.3443406397
 10
344.3196913807
 20
-72.2340623751
 10
345.7855563456
 20
-69.0579980385
 10
347.0498525924
 20
-65.845801687
 10
348.1007757274
 20
-62.6274647323
 10
348.9285135647
 20
-59.4330359195
 10
349.5253377389
 20
-56.2923407697
 10
349.8856758637
 20
-53.2347031074
 10
350.006163559
 20
-50.2886712714
  0
LWPOLYLINE
  5
E7
330
1F
100
AcDbEntity
  8
0
  6
Continuous
 62
     7
370
    25
100
AcDbPolyline
 90
       61
 70
   128
 43
0.0
 10
346.3292082969
 20
-52.4113323622
 10
346.2079644625
 20
-49.8098149669
 10
345.8455613321
 20
-47.3767854922
 10
345.2459694702
 20
-45.1389007181
 10
344.4157581308
 20
-43.1206793785
 10
343.364023283
 20
-41.3442335287
 10
342.1022879539
 20
-39.8290262812
 10
340.6443759798
 20
-38.5916585637
 10
339.0062605494
 20
-37.6456872358
 10
337.2058891982
 20
-37.0014765573
 10
335.2629871713
 20
-36.6660846354
 10
333.19884131
 20
-36.6431860939
 10
331.0360668284
 20
-36.9330318142
 10
328.7983595361
 20
-37.5324461859
 10
326.5102362226
 20
-38.4348618997
 10
324.1967660457
 20
-39.6303919002
 10
321.8832958689
 20
-41.1059377105
 10
319.5951725554
 20
-42.8453329419
 10
317.3574652631
 20
-44.8295204163
 10
315.1946907814
 20
-47.0367609606
 10
313.1305449202
 20
-49.4428715854
 10
311.1876428933
 20
-52.0214904392
 10
309.387271542
 20
-54.7443656342
 10
307.7491561116
 20
-57.58166478
 10
306.2912441375
 20
-60.5023018334
 10
305.0295088085
 20
-63.4742776836
 10
303.9777739607
 20
-66.4650307414
 10
303.1475626213
 20
-69.4417936904
 10
302.5479707594
 20
-72.3719524927
 10
302.185567629
 20
-75.2234037154
 10
302.0643237946
 20
-77.9649062622
 10
302.185567629
 20
-80.5664236574
 10
302.5479707594
 20
-82.9994531321
 10
303.1475626213
 20
-85.2373379062
 10
303.9777739607
 20
-87.2555592459
 10
305.0295088085
 20
-89.0320050957
 10
306.2912441375
 20
-90.5472123432
 10
307.7491561116
 20
-91.7845800607
 10
309.387271542
 20
-92.7305513886
 10
311.1876428933
 20
-93.374762067
 10
313.1305449202
 20
-93.710153989
 10
315.1946907814
 20
-93.7330525305
 10
317.3574652631
 20
-93.4432068101
 10
319.5951725554
 20
-92.8437924385
 10
321.8832958689
 20
-91.9413767247
 10
324.1967660457
 20
-90.7458467242
 10
326.5102362226
 20
-89.2703009139
 10
328.7983595361
 20
-87.5309056825
 10
331.0360668284
 20
-85.546718208
 10
333.19884131
 20
-83.3394776638
 10
335.2629871713
 20
-80.933367039
 10
337.2058891982
 20
-78.3547481852
 10
339.0062605494
 20
-75.6318729902
 10
340.6443759798
 20
-72.7945738444
 10
342.1022879539
 20
-69.873936791
 10
343.364023283
 20
-66.9019609407
 10
344.4157581308
 20
-63.9112078829
 10
345.2459694702
 20
-60.934444934
 10
345.8455613321
 20
-58.0042861316
 10
346.2079644625
 20
-55.1528349089
 10
346.3292082969
 20
-52.4113323622
  0
LWPOLYLINE
  5
E8
330
1F
100
AcDbEntity
  8
0
  6
Continuous
 62
     7
370
    25
100
AcDbPolyline
 90
       10
 70
   128
 43
0.0
 10
547.9960622913
 20
-162.544786647
 10
547.8748877348
 20
-159.6327174118
 10
547.5124289518
 20
-156.8861447105
 10
546.9118712431
 20
-154.329205523
 10
546.0784923314
 20
-151.9843703228
 10
545.0196159806
 20
-149.8722456058
 10
543.744547634
 20
-148.0113928
 10
542.2644926383
 20
-146.4181651469
 10
540.5924577698
 20
-145.1065639882
 10
539.9173131114
 20
-144.6888391947
  0
LWPOLYLINE
  5
E9
330
1F
100
AcDbEntity
  8
0
  6
Continuous
 62
     7
370
    25
100
AcDbPolyline
 90
       27
 70
   128
 43
0.0
 10
500.9204825386
 20
-212.2406504604
 10
501.1488183911
 20
-212.3694147113
 10
503.080779701
 20
-213.2377658631
 10
505.1651090163
 20
-213.8005304557
 10
507.3834891761
 20
-214.0527628938
 10
509.7164249758
 20
-213.9922465494
 10
512.1434144918
 20
-213.6195132425
 10
514.6431292528
 20
-212.9378385667
 10
517.1936016758
 20
-211.9532131036
 10
519.7724181172
 20
-210.6742897772
 10
522.3569158456
 20
-209.1123078116
 10
524.9243822019
 20
-207.2809939606
 10
527.4522541996
 20
-205.196441876
 10
529.9183168085
 20
-202.8769706766
 10
532.3008981818
 20
-200.3429639587
 10
534.5790601087
 20
-197.6166906644
 10
536.7327820204
 20
-194.7221093815
 10
538.7431369312
 20
-191.6846577943
 10
540.5924577698
 20
-188.5310291366
 10
542.2644926383
 20
-185.2889376105
 10
543.744547634
 20
-181.9868748328
 10
545.0196159806
 20
-178.65385945
 10
546.0784923314
 20
-175.3191821211
 10
546.9118712431
 20
-172.0121481103
 10
547.5124289518
 20
-168.7618197516
 10
547.8748877348
 20
-165.5967610472
 10
547.9960622913
 20
-162.544786647
  0
LWPOLYLINE
  5
EA
330
1F
100
AcDbEntity
  8
0
  6
Continuous
 62
     7
370
    25
100
AcDbPolyline
 90
       14
 70
   128
 43
0.0
 10
387.1292695713
 20
-69.6783639272
 10
387.0080950149
 20
-66.7662946919
 10
386.6456362319
 20
-64.0197219907
 10
386.0450785232
 20
-61.4627828032
 10
385.2116996115
 20
-59.1179476029
 10
384.1528232606
 20
-57.0058228859
 10
382.8777549141
 20
-55.1449700802
 10
381.3976999183
 20
-53.551742427
 10
379.7256650499
 20
-52.2401412684
 10
377.8763442112
 20
-51.2216930024
 10
375.8659893005
 20
-50.5053477891
 10
373.7122673888
 20
-50.0974008958
 10
371.4341054618
 20
-50.0014373747
 10
370.9307479378
 20
-50.0216447652
  0
LWPOLYLINE
  5
EB
330
1F
100
AcDbEntity
  8
0
  6
Continuous
 62
     7
370
    25
100
AcDbPolyline
 90
       30
 70
   128
 43
0.0
 10
334.4337141966
 20
-113.243211719
 10
335.5625540029
 20
-115.1537323355
 10
336.9416314298
 20
-116.8826728582
 10
338.5194105123
 20
-118.3366853816
 10
340.2820256712
 20
-119.5029919914
 10
342.213986981
 20
-120.3713431433
 10
344.2983162963
 20
-120.9341077359
 10
346.5166964562
 20
-121.1863401739
 10
348.8496322559
 20
-121.1258238296
 10
351.2766217719
 20
-120.7530905226
 10
353.7763365329
 20
-120.0714158468
 10
356.3268089558
 20
-119.0867903838
 10
358.9056253973
 20
-117.8078670573
 10
361.4901231257
 20
-116.2458850918
 10
364.057589482
 20
-114.4145712407
 10
366.5854614796
 20
-112.3300191562
 10
369.0515240885
 20
-110.0105479568
 10
371.4341054618
 20
-107.4765412389
 10
373.7122673888
 20
-104.7502679446
 10
375.8659893005
 20
-101.8556866617
 10
377.8763442112
 20
-98.8182350745
 10
379.7256650499
 20
-95.6646064168
 10
381.3976999183
 20
-92.4225148907
 10
382.8777549141
 20
-89.120452113
 10
384.1528232606
 20
-85.7874367302
 10
385.2116996115
 20
-82.4527594013
 10
386.0450785232
 20
-79.1457253905
 10
386.6456362319
 20
-75.8953970317
 10
387.0080950149
 20
-72.7303383274
 10
387.1292695713
 20
-69.6783639272
  0
LWPOLYLINE
  5
EC
330
1F
100
AcDbEntity
  8
0
  6
Continuous
 62
     7
370
    25
100
AcDbPolyline
 90
       11
 70
   128
 43
0.0
 10
623.9746859298
 20
-201.9568882453
 10
623.8550818796
 20
-198.8625956728
 10
623.4971799882
 20
-195.9299444321
 10
622.9037041051
 20
-193.1812537699
 10
622.0791709401
 20
-190.6374428819
 10
621.0298556884
 20
-188.3178717048
 10
619.7637442727
 20
-186.2401935761
 10
618.2904725654
 20
-184.4202208806
 10
616.6212530537
 20
-182.8718047097
 10
614.768789506
 20
-181.6067294453
 10
614.7669833389
 20
-181.6056865977
  0
LWPOLYLINE
  5
ED
330
1F
100
AcDbEntity
  8
0
  6
Continuous
 62
     7
370
    25
100
AcDbPolyline
 90
       28
 70
   128
 43
0.0
 10
570.3205956732
 20
-258.5974304634
 10
572.3403987235
 20
-259.568493987
 10
574.515767944
 20
-260.2402331487
 10
576.8283412942
 20
-260.6064927601
 10
579.2605186945
 20
-260.6644853645
 10
581.7937898063
 20
-260.4137696031
 10
584.4088749069
 20
-259.8562535742
 10
587.0858716196
 20
-258.9961803116
 10
589.804406383
 20
-257.8400954919
 10
592.543789506
 20
-256.3967976189
 10
595.2831726291
 20
-254.6772710607
 10
598.0017073924
 20
-252.6946024527
 10
600.6787041051
 20
-250.4638811004
 10
603.2937892057
 20
-248.0020841399
 10
605.8270603176
 20
-245.3279473328
 10
608.2592377179
 20
-242.4618224748
 10
610.5718110681
 20
-239.4255225067
 10
612.7471802885
 20
-236.2421555046
 10
614.768789506
 20
-232.9359488136
 10
616.6212530537
 20
-229.5320646629
 10
618.2904725654
 20
-226.0564086662
 10
619.7637442727
 20
-222.5354326644
 10
621.0298556884
 20
-218.9959334108
 10
622.0791709401
 20
-215.4648486319
 10
622.9037041051
 20
-211.9690520151
 10
623.4971799882
 20
-208.5351486834
 10
623.8550818796
 20
-205.1892727147
 10
623.9746859298
 20
-201.9568882453
  0
LWPOLYLINE
  5
EE
330
1F
100
AcDbEntity
  8
0
  6
Continuous
 62
     7
370
    25
100
AcDbPolyline
 90
       16
 70
   128
 43
0.0
 10
551.8497942487
 20
-160.3200745423
 10
551.7301901986
 20
-157.2257819698
 10
551.3722883072
 20
-154.2931307291
 10
550.7788124241
 20
-151.5444400669
 10
549.9542792591
 20
-149.0006291789
 10
548.9049640074
 20
-146.6810580019
 10
547.6388525917
 20
-144.6033798731
 10
546.1655808843
 20
-142.7834071777
 10
544.4963613727
 20
-141.2349910068
 10
542.643897825
 20
-139.9699157423
 10
540.6222886075
 20
-138.9978093711
 10
538.446919387
 20
-138.3260702094
 10
536.1343460369
 20
-137.959810598
 10
533.7021686366
 20
-137.9018179937
 10
531.1688975247
 20
-138.1525337551
 10
529.253397107
 20
-138.5326915227
  0
LWPOLYLINE
  5
EF
330
1F
100
AcDbEntity
  8
0
  6
Continuous
 62
     7
370
    25
100
AcDbPolyline
 90
       34
 70
   128
 43
0.0
 10
490.2565665342
 20
-206.0845027884
 10
490.8835163909
 20
-207.9288604763
 10
491.9328316426
 20
-210.2484316533
 10
493.1989430583
 20
-212.3261097821
 10
494.6722147657
 20
-214.1460824775
 10
496.3414342773
 20
-215.6944986484
 10
498.193897825
 20
-216.9595739128
 10
500.2155070425
 20
-217.9316802841
 10
502.3908762629
 20
-218.6034194457
 10
504.7034496131
 20
-218.9696790571
 10
507.1356270134
 20
-219.0276716615
 10
509.6688981253
 20
-218.7769559001
 10
512.2839832259
 20
-218.2194398713
 10
514.9609799386
 20
-217.3593666086
 10
517.679514702
 20
-216.203281789
 10
520.418897825
 20
-214.7599839159
 10
523.158280948
 20
-213.0404573577
 10
525.8768157114
 20
-211.0577887498
 10
528.5538124241
 20
-208.8270673974
 10
531.1688975247
 20
-206.365270437
 10
533.7021686366
 20
-203.6911336299
 10
536.1343460369
 20
-200.8250087719
 10
538.446919387
 20
-197.7887088038
 10
540.6222886075
 20
-194.6053418017
 10
542.643897825
 20
-191.2991351106
 10
544.4963613727
 20
-187.8952509599
 10
546.1655808843
 20
-184.4195949633
 10
547.6388525917
 20
-180.8986189614
 10
548.9049640074
 20
-177.3591197078
 10
549.9542792591
 20
-173.828034929
 10
550.7788124241
 20
-170.3322383122
 10
551.3722883072
 20
-166.8983349805
 10
551.7301901986
 20
-163.5524590117
 10
551.8497942487
 20
-160.3200745423
  0
LWPOLYLINE
  5
F0
330
1F
100
AcDbEntity
  8
0
  6
Continuous
 62
     7
370
    25
100
AcDbPolyline
 90
        8
 70
   128
 43
0.0
 10
638.8592836737
 20
-216.2236199994
 10
638.7392148892
 20
-213.3822915293
 10
638.3800958971
 20
-210.7053230376
 10
637.7851789346
 20
-208.2169575656
 10
636.9598516619
 20
-205.9397301363
 10
635.9115883706
 20
-203.8942636739
 10
634.6498822953
 20
-202.0990822395
 10
634.0915965621
 20
-201.4587600764
  0
LWPOLYLINE
  5
F1
330
1F
100
AcDbEntity
  8
0
  6
Continuous
 62
     7
370
    25
100
AcDbPolyline
 90
       24
 70
   128
 43
0.0
 10
597.1768070931
 20
-265.4039795851
 10
599.084527232
 20
-265.7030388814
 10
601.327425403
 20
-265.743487391
 10
603.6700803253
 20
-265.474104781
 10
606.0912765533
 20
-264.897330622
 10
608.569087359
 20
-264.0183882701
 10
611.081073304
 20
-262.8452375634
 10
613.6044854545
 20
-261.3885027364
 10
616.1164713995
 20
-259.6613762052
 10
618.5942822051
 20
-257.6794990951
 10
621.0154784331
 20
-255.4608195921
 10
623.3581333555
 20
-253.0254304014
 10
625.6010315265
 20
-250.3953867847
 10
627.7238609129
 20
-247.5945068242
 10
629.7073968432
 20
-244.6481557225
 10
631.5336761087
 20
-241.5830160915
 10
633.1861596417
 20
-238.4268463103
 10
634.6498822953
 20
-235.2082291413
 10
635.9115883706
 20
-231.9563128798
 10
636.9598516619
 20
-228.7005473832
 10
637.7851789346
 20
-225.4704173679
 10
638.3800958971
 20
-222.2951753916
 10
638.7392148892
 20
-219.2035769373
 10
638.8592836737
 20
-216.2236199994
  0
LWPOLYLINE
  5
F2
330
1F
100
AcDbEntity
  8
0
  6
Continuous
 62
     7
370
    25
100
AcDbPolyline
 90
       10
 70
   128
 43
0.0
 10
688.3567583568
 20
-244.7979039132
 10
688.2366895723
 20
-241.9565754431
 10
687.8775705802
 20
-239.2796069514
 10
687.2826536177
 20
-236.7912414794
 10
686.457326345
 20
-234.5140140501
 10
685.4090630537
 20
-232.4685475877
 10
684.1473569784
 20
-230.6733661533
 10
682.6836343248
 20
-229.1447271879
 10
681.0311507918
 20
-227.8964742827
 10
680.5887302992
 20
-227.6287236706
  0
LWPOLYLINE
  5
F3
330
1F
100
AcDbEntity
  8
0
  6
Continuous
 62
     7
370
    25
100
AcDbPolyline
 90
       26
 70
   128
 43
0.0
 10
643.0917778254
 20
-292.5823883491
 10
644.4756365984
 20
-293.2712002103
 10
646.4591725286
 20
-293.927409474
 10
648.5820019151
 20
-294.2773227952
 10
650.824900086
 20
-294.3177713048
 10
653.1675550084
 20
-294.0483886948
 10
655.5887512364
 20
-293.4716145358
 10
658.0665620421
 20
-292.5926721839
 10
660.578547987
 20
-291.4195214772
 10
663.1019601376
 20
-289.9627866502
 10
665.6139460826
 20
-288.2356601189
 10
668.0917568882
 20
-286.2537830089
 10
670.5129531162
 20
-284.0351035059
 10
672.8556080386
 20
-281.5997143152
 10
675.0985062096
 20
-278.9696706985
 10
677.221335596
 20
-276.168790738
 10
679.2048715263
 20
-273.2224396363
 10
681.0311507918
 20
-270.1573000053
 10
682.6836343248
 20
-267.0011302241
 10
684.1473569784
 20
-263.7825130551
 10
685.4090630537
 20
-260.5305967936
 10
686.457326345
 20
-257.274831297
 10
687.2826536177
 20
-254.0447012817
 10
687.8775705802
 20
-250.8694593054
 10
688.2366895723
 20
-247.7778608511
 10
688.3567583568
 20
-244.7979039132
  0
ENDSEC
  0
SECTION
  2
OBJECTS
  0
DICTIONARY
  5
C
330
0
100
AcDbDictionary
281
     1
  3
ACAD_GROUP
350
D
  3
ACAD_LAYOUT
350
1A
  3
ACAD_MLINESTYLE
350
17
  3
ACAD_PLOTSETTINGS
350
19
  3
ACAD_PLOTSTYLENAME
350
E
  3
ACAD_SCALELIST
350
47
  3
DWGPROPS
350
F4
  0
DICTIONARY
  5
D
102
{ACAD_REACTORS
330
C
102
}
330
C
100
AcDbDictionary
281
     1
  0
DICTIONARY
  5
1A
102
{ACAD_REACTORS
330
C
102
}
330
C
100
AcDbDictionary
281
     1
  3
Layout1
350
1E
  3
Layout2
350
26
  3
Model
350
22
  0
DICTIONARY
  5
17
102
{ACAD_REACTORS
330
C
102
}
330
C
100
AcDbDictionary
281
     1
  3
Standard
350
18
  0
DICTIONARY
  5
19
102
{ACAD_REACTORS
330
C
102
}
330
C
100
AcDbDictionary
281
     1
  0
ACDBDICTIONARYWDFLT
  5
E
102
{ACAD_REACTORS
330
C
102
}
330
C
100
AcDbDictionary
281
     1
  3
Normal
350
F
100
AcDbDictionaryWithDefault
340
F
  0
DICTIONARY
  5
47
102
{ACAD_REACTORS
330
C
102
}
330
C
100
AcDbDictionary
281
     1
  3
A0
350
48
  3
A1
350
49
  3
A2
350
4A
  3
A3
350
4B
  3
A4
350
4C
  3
A5
350
4D
  3
A6
350
4E
  3
A7
350
4F
  3
A8
350
50
  3
A9
350
51
  3
B0
350
52
  3
B1
350
53
  3
B2
350
54
  3
B3
350
55
  3
B4
350
56
  3
B5
350
57
  3
B6
350
58
  3
B7
350
59
  3
B8
350
5A
  3
B9
350
5B
  3
C0
350
5C
  3
C1
350
5D
  3
C2
350
5E
  3
C3
350
5F
  3
C4
350
60
  3
C5
350
61
  3
C6
350
62
  3
C7
350
63
  3
C8
350
64
  3
C9
350
65
  3
D0
350
66
  3
D1
350
67
  3
D2
350
68
  0
XRECORD
  5
F4
102
{ACAD_REACTORS
330
C
102
}
330
C
100
AcDbXrecord
280
     1
  1
DWGPROPS COOKIE
  2

  3

  4

  6

  7

  8
b.kav
  9

300
=
301
=
302
=
303
=
304
=
305
=
306
=
307
=
308
=
309
=
 40
0.0
 41
2459935.584654456
 42
2459935.584654641
  1

 90
        0
  0
LAYOUT
  5
1E
102
{ACAD_REACTORS
330
1A
102
}
330
1A
100
AcDbPlotSettings
  1

  2
none_device
  4

  6

 40
0.0
 41
0.0
 42
0.0
 43
0.0
 44
0.0
 45
0.0
 46
0.0
 47
0.0
 48
0.0
 49
0.0
140
0.0
141
0.0
142
1.0
143
1.0
 70
   688
 72
     1
 73
     0
 74
     5
  7

 75
    16
147
1.0
148
0.0
149
0.0
100
AcDbLayout
  1
Layout1
 70
     1
 71
     1
 10
0.0
 20
0.0
 11
420.0
 21
297.0
 12
0.0
 22
0.0
 32
0.0
 14
1.0000000000E+20
 24
1.0000000000E+20
 34
1.0000000000E+20
 15
-1.0000000000E+20
 25
-1.0000000000E+20
 35
-1.0000000000E+20
146
0.0
 13
0.0
 23
0.0
 33
0.0
 16
1.0
 26
0.0
 36
0.0
 17
0.0
 27
1.0
 37
0.0
 76
     0
330
1B
  0
LAYOUT
  5
26
102
{ACAD_REACTORS
330
1A
102
}
330
1A
100
AcDbPlotSettings
  1

  2
none_device
  4

  6

 40
0.0
 41
0.0
 42
0.0
 43
0.0
 44
0.0
 45
0.0
 46
0.0
 47
0.0
 48
0.0
 49
0.0
140
0.0
141
0.0
142
1.0
143
1.0
 70
   688
 72
     1
 73
     0
 74
     5
  7

 75
    16
147
1.0
148
0.0
149
0.0
100
AcDbLayout
  1
Layout2
 70
     1
 71
     2
 10
0.0
 20
0.0
 11
0.0
 21
0.0
 12
0.0
 22
0.0
 32
0.0
 14
0.0
 24
0.0
 34
0.0
 15
0.0
 25
0.0
 35
0.0
146
0.0
 13
0.0
 23
0.0
 33
0.0
 16
1.0
 26
0.0
 36
0.0
 17
0.0
 27
1.0
 37
0.0
 76
     0
330
23
  0
LAYOUT
  5
22
102
{ACAD_REACTORS
330
1A
102
}
330
1A
100
AcDbPlotSettings
  1

  2
none_device
  4
Letter_(8.50_x_11.00_Inches)
  6

 40
6.35
 41
6.35
 42
6.35000508
 43
6.35000508
 44
215.9
 45
279.4
 46
0.0
 47
0.0
 48
0.0
 49
0.0
140
0.0
141
0.0
142
1.0
143
1.0
 70
  1712
 72
     1
 73
     0
 74
     0
  7

 75
     0
147
1.0
148
0.0
149
0.0
100
AcDbLayout
  1
Model
 70
     1
 71
     0
 10
0.0
 20
0.0
 11
279.4
 21
215.9
 12
0.0
 22
0.0
 32
0.0
 14
0.0
 24
0.0
 34
0.0
 15
279.4
 25
215.9
 35
0.0
146
0.0
 13
0.0
 23
0.0
 33
0.0
 16
1.0
 26
0.0
 36
0.0
 17
0.0
 27
1.0
 37
0.0
 76
     0
330
1F
331
29
  0
MLINESTYLE
  5
18
102
{ACAD_REACTORS
330
17
102
}
330
17
100
AcDbMlineStyle
  2
Standard
 70
     0
  3

 62
   256
 51
90.0
 52
90.0
 71
     2
 49
0.5
 62
   256
  6
BYLAYER
 49
-0.5
 62
   256
  6
BYLAYER
  0
ACDBPLACEHOLDER
  5
F
102
{ACAD_REACTORS
330
E
102
}
330
E
  0
SCALE
  5
48
102
{ACAD_REACTORS
330
47
102
}
330
47
100
AcDbScale
 70
     0
300
1:1
140
1.0
141
1.0
290
     1
  0
SCALE
  5
49
102
{ACAD_REACTORS
330
47
102
}
330
47
100
AcDbScale
 70
     0
300
1:2
140
1.0
141
2.0
290
     0
  0
SCALE
  5
4A
102
{ACAD_REACTORS
330
47
102
}
330
47
100
AcDbScale
 70
     0
300
1:4
140
1.0
141
4.0
290
     0
  0
SCALE
  5
4B
102
{ACAD_REACTORS
330
47
102
}
330
47
100
AcDbScale
 70
     0
300
1:5
140
1.0
141
5.0
290
     0
  0
SCALE
  5
4C
102
{ACAD_REACTORS
330
47
102
}
330
47
100
AcDbScale
 70
     0
300
1:8
140
1.0
141
8.0
290
     0
  0
SCALE
  5
4D
102
{ACAD_REACTORS
330
47
102
}
330
47
100
AcDbScale
 70
     0
300
1:10
140
1.0
141
10.0
290
     0
  0
SCALE
  5
4E
102
{ACAD_REACTORS
330
47
102
}
330
47
100
AcDbScale
 70
     0
300
1:16
140
1.0
141
16.0
290
     0
  0
SCALE
  5
4F
102
{ACAD_REACTORS
330
47
102
}
330
47
100
AcDbScale
 70
     0
300
1:20
140
1.0
141
20.0
290
     0
  0
SCALE
  5
50
102
{ACAD_REACTORS
330
47
102
}
330
47
100
AcDbScale
 70
     0
300
1:30
140
1.0
141
30.0
290
     0
  0
SCALE
  5
51
102
{ACAD_REACTORS
330
47
102
}
330
47
100
AcDbScale
 70
     0
300
1:40
140
1.0
141
40.0
290
     0
  0
SCALE
  5
52
102
{ACAD_REACTORS
330
47
102
}
330
47
100
AcDbScale
 70
     0
300
1:50
140
1.0
141
50.0
290
     0
  0
SCALE
  5
53
102
{ACAD_REACTORS
330
47
102
}
330
47
100
AcDbScale
 70
     0
300
1:100
140
1.0
141
100.0
290
     0
  0
SCALE
  5
54
102
{ACAD_REACTORS
330
47
102
}
330
47
100
AcDbScale
 70
     0
300
2:1
140
2.0
141
1.0
290
     0
  0
SCALE
  5
55
102
{ACAD_REACTORS
330
47
102
}
330
47
100
AcDbScale
 70
     0
300
4:1
140
4.0
141
1.0
290
     0
  0
SCALE
  5
56
102
{ACAD_REACTORS
330
47
102
}
330
47
100
AcDbScale
 70
     0
300
8:1
140
8.0
141
1.0
290
     0
  0
SCALE
  5
57
102
{ACAD_REACTORS
330
47
102
}
330
47
100
AcDbScale
 70
     0
300
10:1
140
10.0
141
1.0
290
     0
  0
SCALE
  5
58
102
{ACAD_REACTORS
330
47
102
}
330
47
100
AcDbScale
 70
     0
300
100:1
140
100.0
141
1.0
290
     0
  0
SCALE
  5
59
102
{ACAD_REACTORS
330
47
102
}
330
47
100
AcDbScale
 70
     0
300
1/128" = 1'-0"
140
0.0078125
141
12.0
290
     0
  0
SCALE
  5
5A
102
{ACAD_REACTORS
330
47
102
}
330
47
100
AcDbScale
 70
     0
300
1/64" = 1'-0"
140
0.015625
141
12.0
290
     0
  0
SCALE
  5
5B
102
{ACAD_REACTORS
330
47
102
}
330
47
100
AcDbScale
 70
     0
300
1/32" = 1'-0"
140
0.03125
141
12.0
290
     0
  0
SCALE
  5
5C
102
{ACAD_REACTORS
330
47
102
}
330
47
100
AcDbScale
 70
     0
300
1/16" = 1'-0"
140
0.0625
141
12.0
290
     0
  0
SCALE
  5
5D
102
{ACAD_REACTORS
330
47
102
}
330
47
100
AcDbScale
 70
     0
300
3/32" = 1'-0"
140
0.09375
141
12.0
290
     0
  0
SCALE
  5
5E
102
{ACAD_REACTORS
330
47
102
}
330
47
100
AcDbScale
 70
     0
300
1/8" = 1'-0"
140
0.125
141
12.0
290
     0
  0
SCALE
  5
5F
102
{ACAD_REACTORS
330
47
102
}
330
47
100
AcDbScale
 70
     0
300
3/16" = 1'-0"
140
0.1875
141
12.0
290
     0
  0
SCALE
  5
60
102
{ACAD_REACTORS
330
47
102
}
330
47
100
AcDbScale
 70
     0
300
1/4" = 1'-0"
140
0.25
141
12.0
290
     0
  0
SCALE
  5
61
102
{ACAD_REACTORS
330
47
102
}
330
47
100
AcDbScale
 70
     0
300
3/8" = 1'-0"
140
0.375
141
12.0
290
     0
  0
SCALE
  5
62
102
{ACAD_REACTORS
330
47
102
}
330
47
100
AcDbScale
 70
     0
300
1/2" = 1'-0"
140
0.5
141
12.0
290
     0
  0
SCALE
  5
63
102
{ACAD_REACTORS
330
47
102
}
330
47
100
AcDbScale
 70
     0
300
3/4" = 1'-0"
140
0.75
141
12.0
290
     0
  0
SCALE
  5
64
102
{ACAD_REACTORS
330
47
102
}
330
47
100
AcDbScale
 70
     0
300
1" = 1'-0"
140
1.0
141
12.0
290
     0
  0
SCALE
  5
65
102
{ACAD_REACTORS
330
47
102
}
330
47
100
AcDbScale
 70
     0
300
1-1/2" = 1'-0"
140
1.5
141
12.0
290
     0
  0
SCALE
  5
66
102
{ACAD_REACTORS
330
47
102
}
330
47
100
AcDbScale
 70
     0
300
3" = 1'-0"
140
3.0
141
12.0
290
     0
  0
SCALE
  5
67
102
{ACAD_REACTORS
330
47
102
}
330
47
100
AcDbScale
 70
     0
300
6" = 1'-0"
140
6.0
141
12.0
290
     0
  0
SCALE
  5
68
102
{ACAD_REACTORS
330
47
102
}
330
47
100
AcDbScale
 70
     0
300
1'-0" = 1'-0"
140
12.0
141
12.0
290
     0
  0
ENDSEC
  0
EOF
